ISO-10303-21;
HEADER;
/****************************************************************
 * Generated by software with PDElib inside                    *
 * PDElib Version v51a, created Wed 11/30/2011                  *
 * ITI Transcendata (http://www.transcendata.com/)              *
 ****************************************************************/
FILE_DESCRIPTION((''),'2;1');
FILE_NAME('C:\\Vault_WS\\Designs\\CQC_ConvertFile\\Output\\HPL-80.stp','2014-06-05T15:14:21',(''),(''),'Autodesk Inventor 2013','Autodesk Inventor 2013','');
FILE_SCHEMA(('AUTOMOTIVE_DESIGN { 1 2 10303 214 0 1 1 1 }'));
ENDSEC;
DATA;
#5=APPLICATION_CONTEXT('automotive design');
#6=APPLICATION_PROTOCOL_DEFINITION('Draft International Standard','automotive_design',1998,#5);
#7=PRODUCT_CONTEXT('None',#5,'mechanical');
#8=PRODUCT('HPL-80','HPL-80','None',(#7));
#9=PRODUCT_RELATED_PRODUCT_CATEGORY('part','description',(#8));
#10=PRODUCT_DEFINITION_FORMATION('None','None',#8);
#11=PRODUCT_DEFINITION_CONTEXT('part definition',#5,'design');
#12=PRODUCT_DEFINITION('None','None',#10,#11);
#18=(NAMED_UNIT(*)PLANE_ANGLE_UNIT()SI_UNIT($,.RADIAN.));
#19=DIMENSIONAL_EXPONENTS(0.0,0.0,0.0,0.0,0.0,0.0,0.0);
#20=PLANE_ANGLE_MEASURE_WITH_UNIT(PLANE_ANGLE_MEASURE(0.0174532925),#18);
#24=(CONVERSION_BASED_UNIT('DEGREE',#20)NAMED_UNIT(#19)PLANE_ANGLE_UNIT());
#28=(NAMED_UNIT(*)SI_UNIT($,.STERADIAN.)SOLID_ANGLE_UNIT());
#32=(LENGTH_UNIT()NAMED_UNIT(*)SI_UNIT(.MILLI.,.METRE.));
#34=UNCERTAINTY_MEASURE_WITH_UNIT(LENGTH_MEASURE(0.01),#32,'DISTANCE_ACCURACY_VALUE','');
#36=(GEOMETRIC_REPRESENTATION_CONTEXT(3)GLOBAL_UNCERTAINTY_ASSIGNED_CONTEXT((#34))GLOBAL_UNIT_ASSIGNED_CONTEXT((#24,#28,#32))REPRESENTATION_CONTEXT('None','None'));
#37=AXIS2_PLACEMENT_3D('',#38,#39,#40);
#38=CARTESIAN_POINT('',(0.0,0.0,0.0));
#39=DIRECTION('',(0.0,0.0,1.0));
#40=DIRECTION('',(1.0,0.0,0.0));
#41=SHAPE_REPRESENTATION('',(#37),#36);
#42=PRODUCT_DEFINITION_SHAPE('','',#12);
#43=SHAPE_DEFINITION_REPRESENTATION(#42,#41);
#49=(NAMED_UNIT(*)PLANE_ANGLE_UNIT()SI_UNIT($,.RADIAN.));
#50=DIMENSIONAL_EXPONENTS(0.0,0.0,0.0,0.0,0.0,0.0,0.0);
#51=PLANE_ANGLE_MEASURE_WITH_UNIT(PLANE_ANGLE_MEASURE(0.0174532925),#49);
#55=(CONVERSION_BASED_UNIT('DEGREE',#51)NAMED_UNIT(#50)PLANE_ANGLE_UNIT());
#59=(NAMED_UNIT(*)SI_UNIT($,.STERADIAN.)SOLID_ANGLE_UNIT());
#63=(LENGTH_UNIT()NAMED_UNIT(*)SI_UNIT(.MILLI.,.METRE.));
#65=UNCERTAINTY_MEASURE_WITH_UNIT(LENGTH_MEASURE(0.000001),#63,'DISTANCE_ACCURACY_VALUE','');
#67=(GEOMETRIC_REPRESENTATION_CONTEXT(3)GLOBAL_UNCERTAINTY_ASSIGNED_CONTEXT((#65))GLOBAL_UNIT_ASSIGNED_CONTEXT((#55,#59,#63))REPRESENTATION_CONTEXT('','3D'));
#68=CARTESIAN_POINT('',(-31.999999999999975,-96.611872320434856,0.0));
#69=DIRECTION('',(-3.061617E-016,1.0,0.0));
#70=DIRECTION('',(1.0,0.0,0.0));
#71=AXIS2_PLACEMENT_3D('',#68,#69,#70);
#72=CYLINDRICAL_SURFACE('',#71,2.0);
#73=CARTESIAN_POINT('',(-34.000000000000014,21.999999999999993,2.449294E-016));
#74=VERTEX_POINT('',#73);
#75=CARTESIAN_POINT('',(-32.000000000000014,21.999999999999993,0.0));
#76=DIRECTION('',(0.0,1.0,0.0));
#77=DIRECTION('',(1.0,0.0,0.0));
#78=AXIS2_PLACEMENT_3D('',#75,#76,#77);
#79=CIRCLE('',#78,2.0);
#80=EDGE_CURVE('',#74,#74,#79,.T.);
#81=ORIENTED_EDGE('',*,*,#80,.F.);
#82=EDGE_LOOP('',(#81));
#83=FACE_OUTER_BOUND('',#82,.T.);
#84=CARTESIAN_POINT('',(-30.000000000000007,22.999999999999993,0.0));
#85=VERTEX_POINT('',#84);
#86=CARTESIAN_POINT('',(-32.000000000000014,22.999999999999989,0.0));
#87=DIRECTION('',(0.0,-1.0,0.0));
#88=DIRECTION('',(1.0,0.0,0.0));
#89=AXIS2_PLACEMENT_3D('',#86,#87,#88);
#90=CIRCLE('',#89,2.0);
#91=EDGE_CURVE('',#85,#85,#90,.T.);
#92=ORIENTED_EDGE('',*,*,#91,.F.);
#93=EDGE_LOOP('',(#92));
#94=FACE_BOUND('',#93,.T.);
#95=ADVANCED_FACE('',(#83,#94),#72,.F.);
#96=CARTESIAN_POINT('',(-6.429396E-015,21.000000000000007,0.0));
#97=DIRECTION('',(3.061617E-016,-1.0,0.0));
#98=DIRECTION('',(0.0,0.0,-1.0));
#99=AXIS2_PLACEMENT_3D('',#96,#97,#98);
#100=TOROIDAL_SURFACE('',#99,35.110025125786748,1.0);
#101=CARTESIAN_POINT('',(35.943358459120077,21.552770798392583,0.0));
#102=VERTEX_POINT('',#101);
#103=CARTESIAN_POINT('',(-2.220446E-015,21.552770798392572,-4.401792E-015));
#104=DIRECTION('',(0.0,-1.0,0.0));
#105=DIRECTION('',(-1.0,0.0,0.0));
#106=AXIS2_PLACEMENT_3D('',#103,#104,#105);
#107=CIRCLE('',#106,35.943358459120077);
#108=EDGE_CURVE('',#102,#102,#107,.T.);
#109=ORIENTED_EDGE('',*,*,#108,.T.);
#110=EDGE_LOOP('',(#109));
#111=FACE_OUTER_BOUND('',#110,.T.);
#112=CARTESIAN_POINT('',(35.110025125786741,22.000000000000014,-8.599476E-015));
#113=VERTEX_POINT('',#112);
#114=CARTESIAN_POINT('',(-6.735557E-015,22.000000000000007,0.0));
#115=DIRECTION('',(0.0,1.0,0.0));
#116=DIRECTION('',(-1.0,0.0,0.0));
#117=AXIS2_PLACEMENT_3D('',#114,#115,#116);
#118=CIRCLE('',#117,35.110025125786748);
#119=EDGE_CURVE('',#113,#113,#118,.T.);
#120=ORIENTED_EDGE('',*,*,#119,.T.);
#121=EDGE_LOOP('',(#120));
#122=FACE_BOUND('',#121,.T.);
#123=ADVANCED_FACE('',(#111,#122),#100,.F.);
#124=CARTESIAN_POINT('',(-6.077078E-015,19.849244327711116,0.0));
#125=DIRECTION('',(3.061617E-016,-1.0,0.0));
#126=DIRECTION('',(1.0,0.0,0.0));
#127=AXIS2_PLACEMENT_3D('',#124,#125,#126);
#128=CONICAL_SURFACE('',#127,37.073350083857839,33.557309761920749);
#129=CARTESIAN_POINT('',(38.333333333333329,17.949748109237042,-9.388959E-015));
#130=VERTEX_POINT('',#129);
#131=CARTESIAN_POINT('',(-4.440892E-015,17.949748109237028,-4.694479E-015));
#132=DIRECTION('',(0.0,1.0,0.0));
#133=DIRECTION('',(-1.0,0.0,0.0));
#134=AXIS2_PLACEMENT_3D('',#131,#132,#133);
#135=CIRCLE('',#134,38.333333333333336);
#136=EDGE_CURVE('',#130,#130,#135,.T.);
#137=ORIENTED_EDGE('',*,*,#136,.F.);
#138=EDGE_LOOP('',(#137));
#139=FACE_OUTER_BOUND('',#138,.T.);
#140=ORIENTED_EDGE('',*,*,#108,.F.);
#141=EDGE_LOOP('',(#140));
#142=FACE_BOUND('',#141,.T.);
#143=ADVANCED_FACE('',(#139,#142),#128,.F.);
#144=CARTESIAN_POINT('',(17.823350083857829,22.000000000000011,0.0));
#145=DIRECTION('',(0.0,-1.0,0.0));
#146=DIRECTION('',(0.0,0.0,-1.0));
#147=AXIS2_PLACEMENT_3D('',#144,#145,#146);
#148=PLANE('',#147);
#149=ORIENTED_EDGE('',*,*,#119,.F.);
#150=EDGE_LOOP('',(#149));
#151=FACE_OUTER_BOUND('',#150,.T.);
#152=ORIENTED_EDGE('',*,*,#80,.T.);
#153=EDGE_LOOP('',(#152));
#154=FACE_BOUND('',#153,.T.);
#155=ADVANCED_FACE('',(#151,#154),#148,.T.);
#156=CARTESIAN_POINT('',(-5.326288E-015,17.396977310844463,0.0));
#157=DIRECTION('',(3.061617E-016,-1.0,0.0));
#158=DIRECTION('',(0.0,0.0,-1.0));
#159=AXIS2_PLACEMENT_3D('',#156,#157,#158);
#160=TOROIDAL_SURFACE('',#159,37.500000000000007,1.0);
#161=CARTESIAN_POINT('',(38.5,17.396977310844473,0.0));
#162=VERTEX_POINT('',#161);
#163=CARTESIAN_POINT('',(-5.326288E-015,17.396977310844463,0.0));
#164=DIRECTION('',(0.0,-1.0,0.0));
#165=DIRECTION('',(-1.0,0.0,0.0));
#166=AXIS2_PLACEMENT_3D('',#163,#164,#165);
#167=CIRCLE('',#166,38.500000000000007);
#168=EDGE_CURVE('',#162,#162,#167,.T.);
#169=ORIENTED_EDGE('',*,*,#168,.T.);
#170=EDGE_LOOP('',(#169));
#171=FACE_OUTER_BOUND('',#170,.T.);
#172=ORIENTED_EDGE('',*,*,#136,.T.);
#173=EDGE_LOOP('',(#172));
#174=FACE_BOUND('',#173,.T.);
#175=ADVANCED_FACE('',(#171,#174),#160,.F.);
#176=CARTESIAN_POINT('',(-2.709300E-015,8.849244327711109,0.0));
#177=DIRECTION('',(3.061617E-016,-1.0,0.0));
#178=DIRECTION('',(1.0,0.0,0.0));
#179=AXIS2_PLACEMENT_3D('',#176,#177,#178);
#180=CYLINDRICAL_SURFACE('',#179,38.500000000000007);
#181=CARTESIAN_POINT('',(38.500000000000007,-1.110223E-015,0.0));
#182=VERTEX_POINT('',#181);
#183=CARTESIAN_POINT('',(3.512896E-030,-1.290634E-014,0.0));
#184=DIRECTION('',(0.0,-1.0,0.0));
#185=DIRECTION('',(1.0,0.0,0.0));
#186=AXIS2_PLACEMENT_3D('',#183,#184,#185);
#187=CIRCLE('',#186,38.500000000000007);
#188=EDGE_CURVE('',#182,#182,#187,.T.);
#189=ORIENTED_EDGE('',*,*,#188,.T.);
#190=EDGE_LOOP('',(#189));
#191=FACE_OUTER_BOUND('',#190,.T.);
#192=ORIENTED_EDGE('',*,*,#168,.F.);
#193=EDGE_LOOP('',(#192));
#194=FACE_BOUND('',#193,.T.);
#195=ADVANCED_FACE('',(#191,#194),#180,.F.);
#196=CARTESIAN_POINT('',(-5.418599E-015,17.698488655422246,0.0));
#197=DIRECTION('',(3.061617E-016,-1.0,0.0));
#198=DIRECTION('',(0.0,0.0,-1.0));
#199=AXIS2_PLACEMENT_3D('',#196,#197,#198);
#200=TOROIDAL_SURFACE('',#199,38.5,1.0);
#201=CARTESIAN_POINT('',(39.333333333333336,18.251259453814821,1.972152E-030));
#202=VERTEX_POINT('',#201);
#203=CARTESIAN_POINT('',(-2.220446E-015,18.251259453814811,-4.816944E-015));
#204=DIRECTION('',(0.0,-1.0,0.0));
#205=DIRECTION('',(-1.0,0.0,0.0));
#206=AXIS2_PLACEMENT_3D('',#203,#204,#205);
#207=CIRCLE('',#206,39.333333333333336);
#208=EDGE_CURVE('',#202,#202,#207,.T.);
#209=ORIENTED_EDGE('',*,*,#208,.T.);
#210=EDGE_LOOP('',(#209));
#211=FACE_OUTER_BOUND('',#210,.T.);
#212=CARTESIAN_POINT('',(39.5,17.698488655422256,-9.674710E-015));
#213=VERTEX_POINT('',#212);
#214=CARTESIAN_POINT('',(-5.418599E-015,17.698488655422246,0.0));
#215=DIRECTION('',(0.0,1.0,0.0));
#216=DIRECTION('',(-1.0,0.0,0.0));
#217=AXIS2_PLACEMENT_3D('',#214,#215,#216);
#218=CIRCLE('',#217,39.5);
#219=EDGE_CURVE('',#213,#213,#218,.T.);
#220=ORIENTED_EDGE('',*,*,#219,.T.);
#221=EDGE_LOOP('',(#220));
#222=FACE_BOUND('',#221,.T.);
#223=ADVANCED_FACE('',(#211,#222),#200,.T.);
#224=CARTESIAN_POINT('',(-6.276315E-015,20.500000000000007,0.0));
#225=DIRECTION('',(3.061617E-016,-1.0,0.0));
#226=DIRECTION('',(1.0,0.0,0.0));
#227=AXIS2_PLACEMENT_3D('',#224,#225,#226);
#228=CONICAL_SURFACE('',#227,37.841687604822297,33.557309761920749);
#229=CARTESIAN_POINT('',(36.480033501049007,22.552770798392572,-8.935031E-015));
#230=VERTEX_POINT('',#229);
#231=CARTESIAN_POINT('',(-4.440892E-015,22.552770798392565,-4.467516E-015));
#232=DIRECTION('',(0.0,1.0,0.0));
#233=DIRECTION('',(-1.0,0.0,0.0));
#234=AXIS2_PLACEMENT_3D('',#231,#232,#233);
#235=CIRCLE('',#234,36.480033501049014);
#236=EDGE_CURVE('',#230,#230,#235,.T.);
#237=ORIENTED_EDGE('',*,*,#236,.F.);
#238=EDGE_LOOP('',(#237));
#239=FACE_OUTER_BOUND('',#238,.T.);
#240=ORIENTED_EDGE('',*,*,#208,.F.);
#241=EDGE_LOOP('',(#240));
#242=FACE_BOUND('',#241,.T.);
#243=ADVANCED_FACE('',(#239,#242),#228,.T.);
#244=CARTESIAN_POINT('',(-2.908536E-015,9.499999999999995,0.0));
#245=DIRECTION('',(3.061617E-016,-1.0,0.0));
#246=DIRECTION('',(1.0,0.0,0.0));
#247=AXIS2_PLACEMENT_3D('',#244,#245,#246);
#248=CYLINDRICAL_SURFACE('',#247,39.5);
#249=CARTESIAN_POINT('',(39.5,0.999999999999999,0.0));
#250=VERTEX_POINT('',#249);
#251=CARTESIAN_POINT('',(-3.061617E-016,0.999999999999987,0.0));
#252=DIRECTION('',(0.0,-1.0,0.0));
#253=DIRECTION('',(1.0,0.0,0.0));
#254=AXIS2_PLACEMENT_3D('',#251,#252,#253);
#255=CIRCLE('',#254,39.5);
#256=EDGE_CURVE('',#250,#250,#255,.T.);
#257=ORIENTED_EDGE('',*,*,#256,.F.);
#258=EDGE_LOOP('',(#257));
#259=FACE_OUTER_BOUND('',#258,.T.);
#260=ORIENTED_EDGE('',*,*,#219,.F.);
#261=EDGE_LOOP('',(#260));
#262=FACE_BOUND('',#261,.T.);
#263=ADVANCED_FACE('',(#259,#262),#248,.T.);
#264=CARTESIAN_POINT('',(-6.735557E-015,22.0,0.0));
#265=DIRECTION('',(3.061617E-016,-1.0,0.0));
#266=DIRECTION('',(0.0,0.0,-1.0));
#267=AXIS2_PLACEMENT_3D('',#264,#265,#266);
#268=TOROIDAL_SURFACE('',#267,35.646700167715679,1.0);
#269=CARTESIAN_POINT('',(35.646700167715672,23.000000000000011,0.0));
#270=VERTEX_POINT('',#269);
#271=CARTESIAN_POINT('',(-7.041719E-015,23.000000000000004,0.0));
#272=DIRECTION('',(0.0,-1.0,0.0));
#273=DIRECTION('',(-1.0,0.0,0.0));
#274=AXIS2_PLACEMENT_3D('',#271,#272,#273);
#275=CIRCLE('',#274,35.646700167715679);
#276=EDGE_CURVE('',#270,#270,#275,.T.);
#277=ORIENTED_EDGE('',*,*,#276,.T.);
#278=EDGE_LOOP('',(#277));
#279=FACE_OUTER_BOUND('',#278,.T.);
#280=ORIENTED_EDGE('',*,*,#236,.T.);
#281=EDGE_LOOP('',(#280));
#282=FACE_BOUND('',#281,.T.);
#283=ADVANCED_FACE('',(#279,#282),#268,.T.);
#284=CARTESIAN_POINT('',(18.09168760482229,23.000000000000007,0.0));
#285=DIRECTION('',(0.0,1.0,0.0));
#286=DIRECTION('',(0.0,0.0,1.0));
#287=AXIS2_PLACEMENT_3D('',#284,#285,#286);
#288=PLANE('',#287);
#289=ORIENTED_EDGE('',*,*,#276,.F.);
#290=EDGE_LOOP('',(#289));
#291=FACE_OUTER_BOUND('',#290,.T.);
#292=ORIENTED_EDGE('',*,*,#91,.T.);
#293=EDGE_LOOP('',(#292));
#294=FACE_BOUND('',#293,.T.);
#295=ADVANCED_FACE('',(#291,#294),#288,.T.);
#296=CARTESIAN_POINT('',(-1.530808E-016,0.499999999999987,0.0));
#297=DIRECTION('',(3.061617E-016,-1.0,0.0));
#298=DIRECTION('',(1.0,0.0,0.0));
#299=AXIS2_PLACEMENT_3D('',#296,#297,#298);
#300=CYLINDRICAL_SURFACE('',#299,41.5);
#301=CARTESIAN_POINT('',(41.5,0.0,0.0));
#302=VERTEX_POINT('',#301);
#303=CARTESIAN_POINT('',(3.451266E-030,-1.276756E-014,0.0));
#304=DIRECTION('',(0.0,-1.0,0.0));
#305=DIRECTION('',(1.0,0.0,0.0));
#306=AXIS2_PLACEMENT_3D('',#303,#304,#305);
#307=CIRCLE('',#306,41.5);
#308=EDGE_CURVE('',#302,#302,#307,.T.);
#309=ORIENTED_EDGE('',*,*,#308,.F.);
#310=EDGE_LOOP('',(#309));
#311=FACE_OUTER_BOUND('',#310,.T.);
#312=CARTESIAN_POINT('',(41.5,1.0,0.0));
#313=VERTEX_POINT('',#312);
#314=CARTESIAN_POINT('',(-3.061617E-016,0.999999999999987,0.0));
#315=DIRECTION('',(0.0,-1.0,0.0));
#316=DIRECTION('',(1.0,0.0,0.0));
#317=AXIS2_PLACEMENT_3D('',#314,#315,#316);
#318=CIRCLE('',#317,41.5);
#319=EDGE_CURVE('',#313,#313,#318,.T.);
#320=ORIENTED_EDGE('',*,*,#319,.T.);
#321=EDGE_LOOP('',(#320));
#322=FACE_BOUND('',#321,.T.);
#323=ADVANCED_FACE('',(#311,#322),#300,.T.);
#324=CARTESIAN_POINT('',(40.0,-5.551115E-016,0.0));
#325=DIRECTION('',(0.0,-1.0,0.0));
#326=DIRECTION('',(0.0,0.0,-1.0));
#327=AXIS2_PLACEMENT_3D('',#324,#325,#326);
#328=PLANE('',#327);
#329=ORIENTED_EDGE('',*,*,#308,.T.);
#330=EDGE_LOOP('',(#329));
#331=FACE_OUTER_BOUND('',#330,.T.);
#332=ORIENTED_EDGE('',*,*,#188,.F.);
#333=EDGE_LOOP('',(#332));
#334=FACE_BOUND('',#333,.T.);
#335=ADVANCED_FACE('',(#331,#334),#328,.T.);
#336=CARTESIAN_POINT('',(40.500000000000007,0.999999999999999,0.0));
#337=DIRECTION('',(0.0,1.0,0.0));
#338=DIRECTION('',(0.0,0.0,1.0));
#339=AXIS2_PLACEMENT_3D('',#336,#337,#338);
#340=PLANE('',#339);
#341=ORIENTED_EDGE('',*,*,#319,.F.);
#342=EDGE_LOOP('',(#341));
#343=FACE_OUTER_BOUND('',#342,.T.);
#344=ORIENTED_EDGE('',*,*,#256,.T.);
#345=EDGE_LOOP('',(#344));
#346=FACE_BOUND('',#345,.T.);
#347=ADVANCED_FACE('',(#343,#346),#340,.T.);
#348=CLOSED_SHELL('',(#95,#123,#143,#155,#175,#195,#223,#243,#263,#283,#295,#323,#335,#347));
#349=MANIFOLD_SOLID_BREP('Solid2',#348);
#350=COLOUR_RGB('',0.356862753629684,0.701960802078247,1.0);
#351=FILL_AREA_STYLE_COLOUR('',#350);
#352=FILL_AREA_STYLE('',(#351));
#353=SURFACE_STYLE_FILL_AREA(#352);
#354=SURFACE_SIDE_STYLE('',(#353));
#355=SURFACE_STYLE_USAGE(.BOTH.,#354);
#356=PRESENTATION_STYLE_ASSIGNMENT((#355));
#357=STYLED_ITEM('',(#356),#95);
#358=STYLED_ITEM('',(#356),#123);
#359=STYLED_ITEM('',(#356),#143);
#360=STYLED_ITEM('',(#356),#155);
#361=STYLED_ITEM('',(#356),#175);
#362=STYLED_ITEM('',(#356),#195);
#363=STYLED_ITEM('',(#356),#223);
#364=STYLED_ITEM('',(#356),#243);
#365=STYLED_ITEM('',(#356),#263);
#366=STYLED_ITEM('',(#356),#283);
#367=STYLED_ITEM('',(#356),#295);
#368=STYLED_ITEM('',(#356),#323);
#369=STYLED_ITEM('',(#356),#335);
#370=STYLED_ITEM('',(#356),#347);
#371=MECHANICAL_DESIGN_GEOMETRIC_PRESENTATION_REPRESENTATION('',(#357,#358,#359,#360,#361,#362,#363,#364,#365,#366,#367,#368,#369,#370,#379),#67);
#372=COLOUR_RGB('Smooth - White',0.920000016689301,0.920000016689301,0.920000016689301);
#373=FILL_AREA_STYLE_COLOUR('Smooth - White',#372);
#374=FILL_AREA_STYLE('Smooth - White',(#373));
#375=SURFACE_STYLE_FILL_AREA(#374);
#376=SURFACE_SIDE_STYLE('Smooth - White',(#375));
#377=SURFACE_STYLE_USAGE(.BOTH.,#376);
#378=PRESENTATION_STYLE_ASSIGNMENT((#377));
#379=STYLED_ITEM('',(#378),#349);
#380=ADVANCED_BREP_SHAPE_REPRESENTATION('ABSR',(#349),#36);
#381=SHAPE_REPRESENTATION_RELATIONSHIP('SRR','None',#380,#41);
ENDSEC;
END-ISO-10303-21;
