ISO-10303-21;
HEADER;
/****************************************************************
 * Generated by software with PDElib inside                    *
 * PDElib Version v51a, created Wed 11/30/2011                  *
 * ITI Transcendata (http://www.transcendata.com/)              *
 ****************************************************************/
FILE_DESCRIPTION((''),'2;1');
FILE_NAME('C:\\Vault_WS\\Designs\\CQC_ConvertFile\\Output\\H\S\DLM-315.stp','2014-02-21T14:09:00',(''),(''),'Autodesk Inventor 2013','Autodesk Inventor 2013','');
FILE_SCHEMA(('AUTOMOTIVE_DESIGN { 1 2 10303 214 0 1 1 1 }'));
ENDSEC;
DATA;
#5=APPLICATION_CONTEXT('automotive design');
#6=APPLICATION_PROTOCOL_DEFINITION('Draft International Standard','automotive_design',1998,#5);
#7=PRODUCT_CONTEXT('None',#5,'mechanical');
#8=PRODUCT('H\S\DLM-315','H\S\DLM-315','None',(#7));
#9=PRODUCT_RELATED_PRODUCT_CATEGORY('part','description',(#8));
#10=PRODUCT_DEFINITION_FORMATION('None','None',#8);
#11=PRODUCT_DEFINITION_CONTEXT('part definition',#5,'design');
#12=PRODUCT_DEFINITION('None','None',#10,#11);
#18=(NAMED_UNIT(*)PLANE_ANGLE_UNIT()SI_UNIT($,.RADIAN.));
#19=DIMENSIONAL_EXPONENTS(0.0,0.0,0.0,0.0,0.0,0.0,0.0);
#20=PLANE_ANGLE_MEASURE_WITH_UNIT(PLANE_ANGLE_MEASURE(0.0174532925),#18);
#24=(CONVERSION_BASED_UNIT('DEGREE',#20)NAMED_UNIT(#19)PLANE_ANGLE_UNIT());
#28=(NAMED_UNIT(*)SI_UNIT($,.STERADIAN.)SOLID_ANGLE_UNIT());
#32=(LENGTH_UNIT()NAMED_UNIT(*)SI_UNIT(.MILLI.,.METRE.));
#34=UNCERTAINTY_MEASURE_WITH_UNIT(LENGTH_MEASURE(0.01),#32,'DISTANCE_ACCURACY_VALUE','');
#36=(GEOMETRIC_REPRESENTATION_CONTEXT(3)GLOBAL_UNCERTAINTY_ASSIGNED_CONTEXT((#34))GLOBAL_UNIT_ASSIGNED_CONTEXT((#24,#28,#32))REPRESENTATION_CONTEXT('None','None'));
#37=AXIS2_PLACEMENT_3D('',#38,#39,#40);
#38=CARTESIAN_POINT('',(0.0,0.0,0.0));
#39=DIRECTION('',(0.0,0.0,1.0));
#40=DIRECTION('',(1.0,0.0,0.0));
#41=SHAPE_REPRESENTATION('',(#37),#36);
#42=PRODUCT_DEFINITION_SHAPE('','',#12);
#43=SHAPE_DEFINITION_REPRESENTATION(#42,#41);
#49=(NAMED_UNIT(*)PLANE_ANGLE_UNIT()SI_UNIT($,.RADIAN.));
#50=DIMENSIONAL_EXPONENTS(0.0,0.0,0.0,0.0,0.0,0.0,0.0);
#51=PLANE_ANGLE_MEASURE_WITH_UNIT(PLANE_ANGLE_MEASURE(0.0174532925),#49);
#55=(CONVERSION_BASED_UNIT('DEGREE',#51)NAMED_UNIT(#50)PLANE_ANGLE_UNIT());
#59=(NAMED_UNIT(*)SI_UNIT($,.STERADIAN.)SOLID_ANGLE_UNIT());
#63=(LENGTH_UNIT()NAMED_UNIT(*)SI_UNIT(.MILLI.,.METRE.));
#65=UNCERTAINTY_MEASURE_WITH_UNIT(LENGTH_MEASURE(0.000001),#63,'DISTANCE_ACCURACY_VALUE','');
#67=(GEOMETRIC_REPRESENTATION_CONTEXT(3)GLOBAL_UNCERTAINTY_ASSIGNED_CONTEXT((#65))GLOBAL_UNIT_ASSIGNED_CONTEXT((#55,#59,#63))REPRESENTATION_CONTEXT('','3D'));
#68=CARTESIAN_POINT('',(77.362499999999997,51.999999999999844,0.0));
#69=DIRECTION('',(0.0,1.0,0.0));
#70=DIRECTION('',(0.0,0.0,1.0));
#71=AXIS2_PLACEMENT_3D('',#68,#69,#70);
#72=PLANE('',#71);
#73=CARTESIAN_POINT('',(154.72499999999999,51.999999999999844,0.0));
#74=VERTEX_POINT('',#73);
#75=CARTESIAN_POINT('',(0.0,51.999999999999844,0.0));
#76=DIRECTION('',(0.0,-1.0,0.0));
#77=DIRECTION('',(1.0,0.0,0.0));
#78=AXIS2_PLACEMENT_3D('',#75,#76,#77);
#79=CIRCLE('',#78,154.72499999999999);
#80=EDGE_CURVE('',#74,#74,#79,.T.);
#81=ORIENTED_EDGE('',*,*,#80,.F.);
#82=EDGE_LOOP('',(#81));
#83=FACE_OUTER_BOUND('',#82,.T.);
#84=ADVANCED_FACE('',(#83),#72,.T.);
#85=CARTESIAN_POINT('',(0.0,48.499999999999844,0.0));
#86=DIRECTION('',(0.0,-1.0,0.0));
#87=DIRECTION('',(0.0,0.0,-1.0));
#88=AXIS2_PLACEMENT_3D('',#85,#86,#87);
#89=TOROIDAL_SURFACE('',#88,154.72499999999999,3.5);
#90=CARTESIAN_POINT('',(158.22500000000002,48.499999999999858,0.0));
#91=VERTEX_POINT('',#90);
#92=CARTESIAN_POINT('',(0.0,48.499999999999858,0.0));
#93=DIRECTION('',(0.0,-1.0,0.0));
#94=DIRECTION('',(1.0,0.0,0.0));
#95=AXIS2_PLACEMENT_3D('',#92,#93,#94);
#96=CIRCLE('',#95,158.22500000000002);
#97=EDGE_CURVE('',#91,#91,#96,.T.);
#98=ORIENTED_EDGE('',*,*,#97,.F.);
#99=EDGE_LOOP('',(#98));
#100=FACE_OUTER_BOUND('',#99,.T.);
#101=ORIENTED_EDGE('',*,*,#80,.T.);
#102=EDGE_LOOP('',(#101));
#103=FACE_BOUND('',#102,.T.);
#104=ADVANCED_FACE('',(#100,#103),#89,.T.);
#105=CARTESIAN_POINT('',(0.0,24.574999999999754,0.0));
#106=DIRECTION('',(0.0,-1.0,0.0));
#107=DIRECTION('',(1.0,0.0,0.0));
#108=AXIS2_PLACEMENT_3D('',#105,#106,#107);
#109=CYLINDRICAL_SURFACE('',#108,158.22500000000002);
#110=CARTESIAN_POINT('',(158.22500000000002,0.64999999999966,0.0));
#111=VERTEX_POINT('',#110);
#112=CARTESIAN_POINT('',(0.0,0.649999999999658,0.0));
#113=DIRECTION('',(0.0,-1.0,0.0));
#114=DIRECTION('',(1.0,0.0,0.0));
#115=AXIS2_PLACEMENT_3D('',#112,#113,#114);
#116=CIRCLE('',#115,158.22500000000002);
#117=EDGE_CURVE('',#111,#111,#116,.T.);
#118=ORIENTED_EDGE('',*,*,#117,.F.);
#119=EDGE_LOOP('',(#118));
#120=FACE_OUTER_BOUND('',#119,.T.);
#121=ORIENTED_EDGE('',*,*,#97,.T.);
#122=EDGE_LOOP('',(#121));
#123=FACE_BOUND('',#122,.T.);
#124=ADVANCED_FACE('',(#120,#123),#109,.T.);
#125=CARTESIAN_POINT('',(0.0,0.649999999999662,0.0));
#126=DIRECTION('',(0.0,-1.0,0.0));
#127=DIRECTION('',(0.0,0.0,-1.0));
#128=AXIS2_PLACEMENT_3D('',#125,#126,#127);
#129=TOROIDAL_SURFACE('',#128,158.37500000000003,0.150000000000013);
#130=CARTESIAN_POINT('',(158.52500000000001,0.649999999999662,0.0));
#131=VERTEX_POINT('',#130);
#132=CARTESIAN_POINT('',(0.0,0.649999999999666,0.0));
#133=DIRECTION('',(0.0,-1.0,0.0));
#134=DIRECTION('',(1.0,0.0,0.0));
#135=AXIS2_PLACEMENT_3D('',#132,#133,#134);
#136=CIRCLE('',#135,158.52500000000001);
#137=EDGE_CURVE('',#131,#131,#136,.T.);
#138=ORIENTED_EDGE('',*,*,#137,.F.);
#139=EDGE_LOOP('',(#138));
#140=FACE_OUTER_BOUND('',#139,.T.);
#141=ORIENTED_EDGE('',*,*,#117,.T.);
#142=EDGE_LOOP('',(#141));
#143=FACE_BOUND('',#142,.T.);
#144=ADVANCED_FACE('',(#140,#143),#129,.F.);
#145=CARTESIAN_POINT('',(0.0,2.824999999999749,0.0));
#146=DIRECTION('',(0.0,-1.0,0.0));
#147=DIRECTION('',(1.0,0.0,0.0));
#148=AXIS2_PLACEMENT_3D('',#145,#146,#147);
#149=CYLINDRICAL_SURFACE('',#148,158.52500000000001);
#150=CARTESIAN_POINT('',(-158.52500000000001,4.99999999999984,-1.941371E-014));
#151=VERTEX_POINT('',#150);
#152=CARTESIAN_POINT('',(0.0,4.99999999999984,0.0));
#153=DIRECTION('',(0.0,-1.0,0.0));
#154=DIRECTION('',(1.0,0.0,0.0));
#155=AXIS2_PLACEMENT_3D('',#152,#153,#154);
#156=CIRCLE('',#155,158.52500000000001);
#157=EDGE_CURVE('',#151,#151,#156,.T.);
#158=ORIENTED_EDGE('',*,*,#157,.F.);
#159=EDGE_LOOP('',(#158));
#160=FACE_OUTER_BOUND('',#159,.T.);
#161=ORIENTED_EDGE('',*,*,#137,.T.);
#162=EDGE_LOOP('',(#161));
#163=FACE_BOUND('',#162,.T.);
#164=ADVANCED_FACE('',(#160,#163),#149,.F.);
#165=CARTESIAN_POINT('',(77.362499999999997,51.499999999999844,0.0));
#166=DIRECTION('',(0.0,1.0,0.0));
#167=DIRECTION('',(0.0,0.0,1.0));
#168=AXIS2_PLACEMENT_3D('',#165,#166,#167);
#169=PLANE('',#168);
#170=CARTESIAN_POINT('',(154.72499999999999,51.499999999999844,0.0));
#171=VERTEX_POINT('',#170);
#172=CARTESIAN_POINT('',(0.0,51.499999999999844,0.0));
#173=DIRECTION('',(0.0,-1.0,0.0));
#174=DIRECTION('',(1.0,0.0,0.0));
#175=AXIS2_PLACEMENT_3D('',#172,#173,#174);
#176=CIRCLE('',#175,154.72499999999999);
#177=EDGE_CURVE('',#171,#171,#176,.T.);
#178=ORIENTED_EDGE('',*,*,#177,.T.);
#179=EDGE_LOOP('',(#178));
#180=FACE_OUTER_BOUND('',#179,.T.);
#181=ADVANCED_FACE('',(#180),#169,.F.);
#182=CARTESIAN_POINT('',(0.0,48.499999999999844,0.0));
#183=DIRECTION('',(0.0,-1.0,0.0));
#184=DIRECTION('',(0.0,0.0,-1.0));
#185=AXIS2_PLACEMENT_3D('',#182,#183,#184);
#186=TOROIDAL_SURFACE('',#185,154.72499999999999,3.0);
#187=CARTESIAN_POINT('',(157.72500000000002,48.499999999999858,0.0));
#188=VERTEX_POINT('',#187);
#189=CARTESIAN_POINT('',(0.0,48.499999999999858,0.0));
#190=DIRECTION('',(0.0,-1.0,0.0));
#191=DIRECTION('',(1.0,0.0,0.0));
#192=AXIS2_PLACEMENT_3D('',#189,#190,#191);
#193=CIRCLE('',#192,157.72500000000002);
#194=EDGE_CURVE('',#188,#188,#193,.T.);
#195=ORIENTED_EDGE('',*,*,#194,.T.);
#196=EDGE_LOOP('',(#195));
#197=FACE_OUTER_BOUND('',#196,.T.);
#198=ORIENTED_EDGE('',*,*,#177,.F.);
#199=EDGE_LOOP('',(#198));
#200=FACE_BOUND('',#199,.T.);
#201=ADVANCED_FACE('',(#197,#200),#186,.F.);
#202=CARTESIAN_POINT('',(0.0,24.574999999999754,0.0));
#203=DIRECTION('',(0.0,-1.0,0.0));
#204=DIRECTION('',(1.0,0.0,0.0));
#205=AXIS2_PLACEMENT_3D('',#202,#203,#204);
#206=CYLINDRICAL_SURFACE('',#205,157.72500000000002);
#207=CARTESIAN_POINT('',(157.72500000000002,0.649999999999653,0.0));
#208=VERTEX_POINT('',#207);
#209=CARTESIAN_POINT('',(0.0,0.649999999999658,0.0));
#210=DIRECTION('',(0.0,-1.0,0.0));
#211=DIRECTION('',(1.0,0.0,0.0));
#212=AXIS2_PLACEMENT_3D('',#209,#210,#211);
#213=CIRCLE('',#212,157.72500000000002);
#214=EDGE_CURVE('',#208,#208,#213,.T.);
#215=ORIENTED_EDGE('',*,*,#214,.T.);
#216=EDGE_LOOP('',(#215));
#217=FACE_OUTER_BOUND('',#216,.T.);
#218=ORIENTED_EDGE('',*,*,#194,.F.);
#219=EDGE_LOOP('',(#218));
#220=FACE_BOUND('',#219,.T.);
#221=ADVANCED_FACE('',(#217,#220),#206,.F.);
#222=CARTESIAN_POINT('',(0.0,0.649999999999662,0.0));
#223=DIRECTION('',(0.0,-1.0,0.0));
#224=DIRECTION('',(0.0,0.0,-1.0));
#225=AXIS2_PLACEMENT_3D('',#222,#223,#224);
#226=TOROIDAL_SURFACE('',#225,158.37500000000003,0.650000000000013);
#227=CARTESIAN_POINT('',(159.02500000000001,0.649999999999662,0.0));
#228=VERTEX_POINT('',#227);
#229=CARTESIAN_POINT('',(0.0,0.649999999999666,0.0));
#230=DIRECTION('',(0.0,-1.0,0.0));
#231=DIRECTION('',(1.0,0.0,0.0));
#232=AXIS2_PLACEMENT_3D('',#229,#230,#231);
#233=CIRCLE('',#232,159.02500000000001);
#234=EDGE_CURVE('',#228,#228,#233,.T.);
#235=ORIENTED_EDGE('',*,*,#234,.T.);
#236=EDGE_LOOP('',(#235));
#237=FACE_OUTER_BOUND('',#236,.T.);
#238=ORIENTED_EDGE('',*,*,#214,.F.);
#239=EDGE_LOOP('',(#238));
#240=FACE_BOUND('',#239,.T.);
#241=ADVANCED_FACE('',(#237,#240),#226,.T.);
#242=CARTESIAN_POINT('',(0.0,2.824999999999749,0.0));
#243=DIRECTION('',(0.0,-1.0,0.0));
#244=DIRECTION('',(1.0,0.0,0.0));
#245=AXIS2_PLACEMENT_3D('',#242,#243,#244);
#246=CYLINDRICAL_SURFACE('',#245,159.02500000000001);
#247=CARTESIAN_POINT('',(159.02500000000001,4.999999999999839,0.0));
#248=VERTEX_POINT('',#247);
#249=CARTESIAN_POINT('',(0.0,4.99999999999984,0.0));
#250=DIRECTION('',(0.0,-1.0,0.0));
#251=DIRECTION('',(1.0,0.0,0.0));
#252=AXIS2_PLACEMENT_3D('',#249,#250,#251);
#253=CIRCLE('',#252,159.02500000000001);
#254=EDGE_CURVE('',#248,#248,#253,.T.);
#255=ORIENTED_EDGE('',*,*,#254,.T.);
#256=EDGE_LOOP('',(#255));
#257=FACE_OUTER_BOUND('',#256,.T.);
#258=ORIENTED_EDGE('',*,*,#234,.F.);
#259=EDGE_LOOP('',(#258));
#260=FACE_BOUND('',#259,.T.);
#261=ADVANCED_FACE('',(#257,#260),#246,.T.);
#262=CARTESIAN_POINT('',(-159.02500000000001,4.99999999999984,1.947495E-014));
#263=DIRECTION('',(0.0,-1.0,0.0));
#264=DIRECTION('',(0.0,0.0,-1.0));
#265=AXIS2_PLACEMENT_3D('',#262,#263,#264);
#266=PLANE('',#265);
#267=ORIENTED_EDGE('',*,*,#254,.F.);
#268=EDGE_LOOP('',(#267));
#269=FACE_OUTER_BOUND('',#268,.T.);
#270=ORIENTED_EDGE('',*,*,#157,.T.);
#271=EDGE_LOOP('',(#270));
#272=FACE_BOUND('',#271,.T.);
#273=ADVANCED_FACE('',(#269,#272),#266,.F.);
#274=CLOSED_SHELL('',(#84,#104,#124,#144,#164,#181,#201,#221,#241,#261,#273));
#275=MANIFOLD_SOLID_BREP('Solid1',#274);
#276=COLOUR_RGB('',1.0,1.0,1.0);
#277=FILL_AREA_STYLE_COLOUR('',#276);
#278=FILL_AREA_STYLE('',(#277));
#279=SURFACE_STYLE_FILL_AREA(#278);
#280=SURFACE_SIDE_STYLE('',(#279));
#281=SURFACE_STYLE_USAGE(.BOTH.,#280);
#282=PRESENTATION_STYLE_ASSIGNMENT((#281));
#283=STYLED_ITEM('',(#282),#84);
#284=STYLED_ITEM('',(#282),#104);
#285=STYLED_ITEM('',(#282),#124);
#286=STYLED_ITEM('',(#282),#144);
#287=STYLED_ITEM('',(#282),#164);
#288=STYLED_ITEM('',(#282),#181);
#289=STYLED_ITEM('',(#282),#201);
#290=STYLED_ITEM('',(#282),#221);
#291=STYLED_ITEM('',(#282),#241);
#292=STYLED_ITEM('',(#282),#261);
#293=STYLED_ITEM('',(#282),#273);
#294=MECHANICAL_DESIGN_GEOMETRIC_PRESENTATION_REPRESENTATION('',(#283,#284,#285,#286,#287,#288,#289,#290,#291,#292,#293,#302),#67);
#295=DRAUGHTING_PRE_DEFINED_COLOUR('white');
#296=FILL_AREA_STYLE_COLOUR('Steel Galvanized',#295);
#297=FILL_AREA_STYLE('Steel Galvanized',(#296));
#298=SURFACE_STYLE_FILL_AREA(#297);
#299=SURFACE_SIDE_STYLE('Steel Galvanized',(#298));
#300=SURFACE_STYLE_USAGE(.BOTH.,#299);
#301=PRESENTATION_STYLE_ASSIGNMENT((#300));
#302=STYLED_ITEM('',(#301),#275);
#303=ADVANCED_BREP_SHAPE_REPRESENTATION('ABSR',(#275),#36);
#304=SHAPE_REPRESENTATION_RELATIONSHIP('SRR','None',#303,#41);
ENDSEC;
END-ISO-10303-21;
