ISO-10303-21;
HEADER;
/****************************************************************
 * Generated by software with PDElib inside                    *
 * PDElib Version v51a, created Wed 11/30/2011                  *
 * ITI Transcendata (http://www.transcendata.com/)              *
 ****************************************************************/
FILE_DESCRIPTION((''),'2;1');
FILE_NAME('C:\\Vault_WS\\Designs\\CQC_ConvertFile\\Output\\HFEM_100-63.stp','2014-02-19T14:49:03',(''),(''),'Autodesk Inventor 2013','Autodesk Inventor 2013','');
FILE_SCHEMA(('AUTOMOTIVE_DESIGN { 1 2 10303 214 0 1 1 1 }'));
ENDSEC;
DATA;
#5=APPLICATION_CONTEXT('automotive design');
#6=APPLICATION_PROTOCOL_DEFINITION('Draft International Standard','automotive_design',1998,#5);
#7=PRODUCT_CONTEXT('None',#5,'mechanical');
#8=PRODUCT('HFEM_100-63','HFEM_100-63','None',(#7));
#9=PRODUCT_RELATED_PRODUCT_CATEGORY('part','description',(#8));
#10=PRODUCT_DEFINITION_FORMATION('None','None',#8);
#11=PRODUCT_DEFINITION_CONTEXT('part definition',#5,'design');
#12=PRODUCT_DEFINITION('None','None',#10,#11);
#18=(NAMED_UNIT(*)PLANE_ANGLE_UNIT()SI_UNIT($,.RADIAN.));
#19=DIMENSIONAL_EXPONENTS(0.0,0.0,0.0,0.0,0.0,0.0,0.0);
#20=PLANE_ANGLE_MEASURE_WITH_UNIT(PLANE_ANGLE_MEASURE(0.0174532925),#18);
#24=(CONVERSION_BASED_UNIT('DEGREE',#20)NAMED_UNIT(#19)PLANE_ANGLE_UNIT());
#28=(NAMED_UNIT(*)SI_UNIT($,.STERADIAN.)SOLID_ANGLE_UNIT());
#32=(LENGTH_UNIT()NAMED_UNIT(*)SI_UNIT(.MILLI.,.METRE.));
#34=UNCERTAINTY_MEASURE_WITH_UNIT(LENGTH_MEASURE(0.01),#32,'DISTANCE_ACCURACY_VALUE','');
#36=(GEOMETRIC_REPRESENTATION_CONTEXT(3)GLOBAL_UNCERTAINTY_ASSIGNED_CONTEXT((#34))GLOBAL_UNIT_ASSIGNED_CONTEXT((#24,#28,#32))REPRESENTATION_CONTEXT('None','None'));
#37=AXIS2_PLACEMENT_3D('',#38,#39,#40);
#38=CARTESIAN_POINT('',(0.0,0.0,0.0));
#39=DIRECTION('',(0.0,0.0,1.0));
#40=DIRECTION('',(1.0,0.0,0.0));
#41=SHAPE_REPRESENTATION('',(#37,#378,#618),#36);
#42=PRODUCT_DEFINITION_SHAPE('','',#12);
#43=SHAPE_DEFINITION_REPRESENTATION(#42,#41);
#44=APPLICATION_CONTEXT('automotive design');
#45=APPLICATION_PROTOCOL_DEFINITION('Draft International Standard','automotive_design',1998,#44);
#46=PRODUCT_CONTEXT('None',#44,'mechanical');
#47=PRODUCT('FD10003','FD10003','None',(#46));
#48=PRODUCT_RELATED_PRODUCT_CATEGORY('part','description',(#47));
#49=PRODUCT_DEFINITION_FORMATION('None','None',#47);
#50=PRODUCT_DEFINITION_CONTEXT('part definition',#44,'design');
#51=PRODUCT_DEFINITION('None','None',#49,#50);
#57=(NAMED_UNIT(*)PLANE_ANGLE_UNIT()SI_UNIT($,.RADIAN.));
#58=DIMENSIONAL_EXPONENTS(0.0,0.0,0.0,0.0,0.0,0.0,0.0);
#59=PLANE_ANGLE_MEASURE_WITH_UNIT(PLANE_ANGLE_MEASURE(0.0174532925),#57);
#63=(CONVERSION_BASED_UNIT('DEGREE',#59)NAMED_UNIT(#58)PLANE_ANGLE_UNIT());
#67=(NAMED_UNIT(*)SI_UNIT($,.STERADIAN.)SOLID_ANGLE_UNIT());
#71=(LENGTH_UNIT()NAMED_UNIT(*)SI_UNIT(.MILLI.,.METRE.));
#73=UNCERTAINTY_MEASURE_WITH_UNIT(LENGTH_MEASURE(0.01),#71,'DISTANCE_ACCURACY_VALUE','');
#75=(GEOMETRIC_REPRESENTATION_CONTEXT(3)GLOBAL_UNCERTAINTY_ASSIGNED_CONTEXT((#73))GLOBAL_UNIT_ASSIGNED_CONTEXT((#63,#67,#71))REPRESENTATION_CONTEXT('None','None'));
#76=AXIS2_PLACEMENT_3D('',#77,#78,#79);
#77=CARTESIAN_POINT('',(0.0,0.0,0.0));
#78=DIRECTION('',(0.0,0.0,1.0));
#79=DIRECTION('',(1.0,0.0,0.0));
#80=SHAPE_REPRESENTATION('',(#76),#75);
#81=PRODUCT_DEFINITION_SHAPE('','',#51);
#82=SHAPE_DEFINITION_REPRESENTATION(#81,#80);
#88=(NAMED_UNIT(*)PLANE_ANGLE_UNIT()SI_UNIT($,.RADIAN.));
#89=DIMENSIONAL_EXPONENTS(0.0,0.0,0.0,0.0,0.0,0.0,0.0);
#90=PLANE_ANGLE_MEASURE_WITH_UNIT(PLANE_ANGLE_MEASURE(0.0174532925),#88);
#94=(CONVERSION_BASED_UNIT('DEGREE',#90)NAMED_UNIT(#89)PLANE_ANGLE_UNIT());
#98=(NAMED_UNIT(*)SI_UNIT($,.STERADIAN.)SOLID_ANGLE_UNIT());
#102=(LENGTH_UNIT()NAMED_UNIT(*)SI_UNIT(.MILLI.,.METRE.));
#104=UNCERTAINTY_MEASURE_WITH_UNIT(LENGTH_MEASURE(0.000001),#102,'DISTANCE_ACCURACY_VALUE','');
#106=(GEOMETRIC_REPRESENTATION_CONTEXT(3)GLOBAL_UNCERTAINTY_ASSIGNED_CONTEXT((#104))GLOBAL_UNIT_ASSIGNED_CONTEXT((#94,#98,#102))REPRESENTATION_CONTEXT('','3D'));
#107=CARTESIAN_POINT('',(-1.099999999999985,37.999999999999844,0.0));
#108=DIRECTION('',(0.0,-1.0,0.0));
#109=DIRECTION('',(-1.0,0.0,0.0));
#110=AXIS2_PLACEMENT_3D('',#107,#108,#109);
#111=CYLINDRICAL_SURFACE('',#110,33.525000000000006);
#112=CARTESIAN_POINT('',(32.425000000000018,37.499999999999851,-4.105628E-015));
#113=VERTEX_POINT('',#112);
#114=CARTESIAN_POINT('',(-1.099999999999985,37.499999999999851,0.0));
#115=DIRECTION('',(0.0,1.0,0.0));
#116=DIRECTION('',(-1.0,0.0,0.0));
#117=AXIS2_PLACEMENT_3D('',#114,#115,#116);
#118=CIRCLE('',#117,33.525000000000006);
#119=EDGE_CURVE('',#113,#113,#118,.T.);
#120=ORIENTED_EDGE('',*,*,#119,.F.);
#121=EDGE_LOOP('',(#120));
#122=FACE_OUTER_BOUND('',#121,.T.);
#123=CARTESIAN_POINT('',(32.425000000000018,37.999999999999844,-4.105628E-015));
#124=VERTEX_POINT('',#123);
#125=CARTESIAN_POINT('',(-1.099999999999985,37.999999999999844,0.0));
#126=DIRECTION('',(0.0,-1.0,0.0));
#127=DIRECTION('',(-1.0,0.0,0.0));
#128=AXIS2_PLACEMENT_3D('',#125,#126,#127);
#129=CIRCLE('',#128,33.525000000000006);
#130=EDGE_CURVE('',#124,#124,#129,.T.);
#131=ORIENTED_EDGE('',*,*,#130,.F.);
#132=EDGE_LOOP('',(#131));
#133=FACE_BOUND('',#132,.T.);
#134=ADVANCED_FACE('',(#122,#133),#111,.F.);
#135=CARTESIAN_POINT('',(23.5625,37.999999999999844,0.0));
#136=DIRECTION('',(0.0,1.0,0.0));
#137=DIRECTION('',(0.0,0.0,1.0));
#138=AXIS2_PLACEMENT_3D('',#135,#136,#137);
#139=PLANE('',#138);
#140=CARTESIAN_POINT('',(47.125,37.999999999999844,0.0));
#141=VERTEX_POINT('',#140);
#142=CARTESIAN_POINT('',(0.0,37.999999999999844,0.0));
#143=DIRECTION('',(0.0,-1.0,0.0));
#144=DIRECTION('',(1.0,0.0,0.0));
#145=AXIS2_PLACEMENT_3D('',#142,#143,#144);
#146=CIRCLE('',#145,47.125);
#147=EDGE_CURVE('',#141,#141,#146,.T.);
#148=ORIENTED_EDGE('',*,*,#147,.F.);
#149=EDGE_LOOP('',(#148));
#150=FACE_OUTER_BOUND('',#149,.T.);
#151=ORIENTED_EDGE('',*,*,#130,.T.);
#152=EDGE_LOOP('',(#151));
#153=FACE_BOUND('',#152,.T.);
#154=ADVANCED_FACE('',(#150,#153),#139,.T.);
#155=CARTESIAN_POINT('',(0.0,34.499999999999844,0.0));
#156=DIRECTION('',(0.0,-1.0,0.0));
#157=DIRECTION('',(0.0,0.0,-1.0));
#158=AXIS2_PLACEMENT_3D('',#155,#156,#157);
#159=TOROIDAL_SURFACE('',#158,47.125,3.5);
#160=CARTESIAN_POINT('',(50.625,34.499999999999844,0.0));
#161=VERTEX_POINT('',#160);
#162=CARTESIAN_POINT('',(0.0,34.499999999999844,0.0));
#163=DIRECTION('',(0.0,-1.0,0.0));
#164=DIRECTION('',(1.0,0.0,0.0));
#165=AXIS2_PLACEMENT_3D('',#162,#163,#164);
#166=CIRCLE('',#165,50.625);
#167=EDGE_CURVE('',#161,#161,#166,.T.);
#168=ORIENTED_EDGE('',*,*,#167,.F.);
#169=EDGE_LOOP('',(#168));
#170=FACE_OUTER_BOUND('',#169,.T.);
#171=ORIENTED_EDGE('',*,*,#147,.T.);
#172=EDGE_LOOP('',(#171));
#173=FACE_BOUND('',#172,.T.);
#174=ADVANCED_FACE('',(#170,#173),#159,.T.);
#175=CARTESIAN_POINT('',(0.0,17.574999999999758,0.0));
#176=DIRECTION('',(0.0,-1.0,0.0));
#177=DIRECTION('',(1.0,0.0,0.0));
#178=AXIS2_PLACEMENT_3D('',#175,#176,#177);
#179=CYLINDRICAL_SURFACE('',#178,50.625);
#180=CARTESIAN_POINT('',(50.625,0.64999999999968,0.0));
#181=VERTEX_POINT('',#180);
#182=CARTESIAN_POINT('',(0.0,0.649999999999671,0.0));
#183=DIRECTION('',(0.0,-1.0,0.0));
#184=DIRECTION('',(1.0,0.0,0.0));
#185=AXIS2_PLACEMENT_3D('',#182,#183,#184);
#186=CIRCLE('',#185,50.625);
#187=EDGE_CURVE('',#181,#181,#186,.T.);
#188=ORIENTED_EDGE('',*,*,#187,.F.);
#189=EDGE_LOOP('',(#188));
#190=FACE_OUTER_BOUND('',#189,.T.);
#191=ORIENTED_EDGE('',*,*,#167,.T.);
#192=EDGE_LOOP('',(#191));
#193=FACE_BOUND('',#192,.T.);
#194=ADVANCED_FACE('',(#190,#193),#179,.T.);
#195=CARTESIAN_POINT('',(0.0,0.649999999999682,0.0));
#196=DIRECTION('',(0.0,-1.0,0.0));
#197=DIRECTION('',(0.0,0.0,-1.0));
#198=AXIS2_PLACEMENT_3D('',#195,#196,#197);
#199=TOROIDAL_SURFACE('',#198,50.774999999999999,0.150000000000013);
#200=CARTESIAN_POINT('',(50.925000000000004,0.649999999999682,0.0));
#201=VERTEX_POINT('',#200);
#202=CARTESIAN_POINT('',(0.0,0.649999999999684,0.0));
#203=DIRECTION('',(0.0,-1.0,0.0));
#204=DIRECTION('',(1.0,0.0,0.0));
#205=AXIS2_PLACEMENT_3D('',#202,#203,#204);
#206=CIRCLE('',#205,50.925000000000004);
#207=EDGE_CURVE('',#201,#201,#206,.T.);
#208=ORIENTED_EDGE('',*,*,#207,.F.);
#209=EDGE_LOOP('',(#208));
#210=FACE_OUTER_BOUND('',#209,.T.);
#211=ORIENTED_EDGE('',*,*,#187,.T.);
#212=EDGE_LOOP('',(#211));
#213=FACE_BOUND('',#212,.T.);
#214=ADVANCED_FACE('',(#210,#213),#199,.F.);
#215=CARTESIAN_POINT('',(0.0,2.824999999999762,0.0));
#216=DIRECTION('',(0.0,-1.0,0.0));
#217=DIRECTION('',(1.0,0.0,0.0));
#218=AXIS2_PLACEMENT_3D('',#215,#216,#217);
#219=CYLINDRICAL_SURFACE('',#218,50.925000000000004);
#220=CARTESIAN_POINT('',(-50.925000000000011,4.99999999999984,-6.236514E-015));
#221=VERTEX_POINT('',#220);
#222=CARTESIAN_POINT('',(0.0,4.99999999999984,0.0));
#223=DIRECTION('',(0.0,-1.0,0.0));
#224=DIRECTION('',(1.0,0.0,0.0));
#225=AXIS2_PLACEMENT_3D('',#222,#223,#224);
#226=CIRCLE('',#225,50.925000000000011);
#227=EDGE_CURVE('',#221,#221,#226,.T.);
#228=ORIENTED_EDGE('',*,*,#227,.F.);
#229=EDGE_LOOP('',(#228));
#230=FACE_OUTER_BOUND('',#229,.T.);
#231=ORIENTED_EDGE('',*,*,#207,.T.);
#232=EDGE_LOOP('',(#231));
#233=FACE_BOUND('',#232,.T.);
#234=ADVANCED_FACE('',(#230,#233),#219,.F.);
#235=CARTESIAN_POINT('',(23.5625,37.499999999999851,0.0));
#236=DIRECTION('',(0.0,1.0,0.0));
#237=DIRECTION('',(0.0,0.0,1.0));
#238=AXIS2_PLACEMENT_3D('',#235,#236,#237);
#239=PLANE('',#238);
#240=CARTESIAN_POINT('',(47.125,37.499999999999851,0.0));
#241=VERTEX_POINT('',#240);
#242=CARTESIAN_POINT('',(0.0,37.499999999999851,0.0));
#243=DIRECTION('',(0.0,-1.0,0.0));
#244=DIRECTION('',(1.0,0.0,0.0));
#245=AXIS2_PLACEMENT_3D('',#242,#243,#244);
#246=CIRCLE('',#245,47.125);
#247=EDGE_CURVE('',#241,#241,#246,.T.);
#248=ORIENTED_EDGE('',*,*,#247,.T.);
#249=EDGE_LOOP('',(#248));
#250=FACE_OUTER_BOUND('',#249,.T.);
#251=ORIENTED_EDGE('',*,*,#119,.T.);
#252=EDGE_LOOP('',(#251));
#253=FACE_BOUND('',#252,.T.);
#254=ADVANCED_FACE('',(#250,#253),#239,.F.);
#255=CARTESIAN_POINT('',(0.0,34.499999999999844,0.0));
#256=DIRECTION('',(0.0,-1.0,0.0));
#257=DIRECTION('',(0.0,0.0,-1.0));
#258=AXIS2_PLACEMENT_3D('',#255,#256,#257);
#259=TOROIDAL_SURFACE('',#258,47.125,3.0);
#260=CARTESIAN_POINT('',(50.125,34.499999999999844,0.0));
#261=VERTEX_POINT('',#260);
#262=CARTESIAN_POINT('',(0.0,34.499999999999844,0.0));
#263=DIRECTION('',(0.0,-1.0,0.0));
#264=DIRECTION('',(1.0,0.0,0.0));
#265=AXIS2_PLACEMENT_3D('',#262,#263,#264);
#266=CIRCLE('',#265,50.125);
#267=EDGE_CURVE('',#261,#261,#266,.T.);
#268=ORIENTED_EDGE('',*,*,#267,.T.);
#269=EDGE_LOOP('',(#268));
#270=FACE_OUTER_BOUND('',#269,.T.);
#271=ORIENTED_EDGE('',*,*,#247,.F.);
#272=EDGE_LOOP('',(#271));
#273=FACE_BOUND('',#272,.T.);
#274=ADVANCED_FACE('',(#270,#273),#259,.F.);
#275=CARTESIAN_POINT('',(0.0,17.574999999999758,0.0));
#276=DIRECTION('',(0.0,-1.0,0.0));
#277=DIRECTION('',(1.0,0.0,0.0));
#278=AXIS2_PLACEMENT_3D('',#275,#276,#277);
#279=CYLINDRICAL_SURFACE('',#278,50.125);
#280=CARTESIAN_POINT('',(50.125,0.649999999999673,0.0));
#281=VERTEX_POINT('',#280);
#282=CARTESIAN_POINT('',(0.0,0.649999999999671,0.0));
#283=DIRECTION('',(0.0,-1.0,0.0));
#284=DIRECTION('',(1.0,0.0,0.0));
#285=AXIS2_PLACEMENT_3D('',#282,#283,#284);
#286=CIRCLE('',#285,50.125);
#287=EDGE_CURVE('',#281,#281,#286,.T.);
#288=ORIENTED_EDGE('',*,*,#287,.T.);
#289=EDGE_LOOP('',(#288));
#290=FACE_OUTER_BOUND('',#289,.T.);
#291=ORIENTED_EDGE('',*,*,#267,.F.);
#292=EDGE_LOOP('',(#291));
#293=FACE_BOUND('',#292,.T.);
#294=ADVANCED_FACE('',(#290,#293),#279,.F.);
#295=CARTESIAN_POINT('',(0.0,0.649999999999682,0.0));
#296=DIRECTION('',(0.0,-1.0,0.0));
#297=DIRECTION('',(0.0,0.0,-1.0));
#298=AXIS2_PLACEMENT_3D('',#295,#296,#297);
#299=TOROIDAL_SURFACE('',#298,50.774999999999999,0.650000000000013);
#300=CARTESIAN_POINT('',(51.424999999999997,0.649999999999682,0.0));
#301=VERTEX_POINT('',#300);
#302=CARTESIAN_POINT('',(0.0,0.649999999999684,0.0));
#303=DIRECTION('',(0.0,-1.0,0.0));
#304=DIRECTION('',(1.0,0.0,0.0));
#305=AXIS2_PLACEMENT_3D('',#302,#303,#304);
#306=CIRCLE('',#305,51.424999999999997);
#307=EDGE_CURVE('',#301,#301,#306,.T.);
#308=ORIENTED_EDGE('',*,*,#307,.T.);
#309=EDGE_LOOP('',(#308));
#310=FACE_OUTER_BOUND('',#309,.T.);
#311=ORIENTED_EDGE('',*,*,#287,.F.);
#312=EDGE_LOOP('',(#311));
#313=FACE_BOUND('',#312,.T.);
#314=ADVANCED_FACE('',(#310,#313),#299,.T.);
#315=CARTESIAN_POINT('',(0.0,2.824999999999762,0.0));
#316=DIRECTION('',(0.0,-1.0,0.0));
#317=DIRECTION('',(1.0,0.0,0.0));
#318=AXIS2_PLACEMENT_3D('',#315,#316,#317);
#319=CYLINDRICAL_SURFACE('',#318,51.424999999999997);
#320=CARTESIAN_POINT('',(51.425000000000011,4.999999999999839,0.0));
#321=VERTEX_POINT('',#320);
#322=CARTESIAN_POINT('',(0.0,4.99999999999984,0.0));
#323=DIRECTION('',(0.0,-1.0,0.0));
#324=DIRECTION('',(1.0,0.0,0.0));
#325=AXIS2_PLACEMENT_3D('',#322,#323,#324);
#326=CIRCLE('',#325,51.425000000000011);
#327=EDGE_CURVE('',#321,#321,#326,.T.);
#328=ORIENTED_EDGE('',*,*,#327,.T.);
#329=EDGE_LOOP('',(#328));
#330=FACE_OUTER_BOUND('',#329,.T.);
#331=ORIENTED_EDGE('',*,*,#307,.F.);
#332=EDGE_LOOP('',(#331));
#333=FACE_BOUND('',#332,.T.);
#334=ADVANCED_FACE('',(#330,#333),#319,.T.);
#335=CARTESIAN_POINT('',(-51.425000000000011,4.99999999999984,6.297746E-015));
#336=DIRECTION('',(0.0,-1.0,0.0));
#337=DIRECTION('',(0.0,0.0,-1.0));
#338=AXIS2_PLACEMENT_3D('',#335,#336,#337);
#339=PLANE('',#338);
#340=ORIENTED_EDGE('',*,*,#327,.F.);
#341=EDGE_LOOP('',(#340));
#342=FACE_OUTER_BOUND('',#341,.T.);
#343=ORIENTED_EDGE('',*,*,#227,.T.);
#344=EDGE_LOOP('',(#343));
#345=FACE_BOUND('',#344,.T.);
#346=ADVANCED_FACE('',(#342,#345),#339,.F.);
#347=CLOSED_SHELL('',(#134,#154,#174,#194,#214,#234,#254,#274,#294,#314,#334,#346));
#348=MANIFOLD_SOLID_BREP('',#347);
#349=COLOUR_RGB('',1.0,1.0,1.0);
#350=FILL_AREA_STYLE_COLOUR('',#349);
#351=FILL_AREA_STYLE('',(#350));
#352=SURFACE_STYLE_FILL_AREA(#351);
#353=SURFACE_SIDE_STYLE('',(#352));
#354=SURFACE_STYLE_USAGE(.BOTH.,#353);
#355=PRESENTATION_STYLE_ASSIGNMENT((#354));
#356=STYLED_ITEM('',(#355),#154);
#357=STYLED_ITEM('',(#355),#174);
#358=STYLED_ITEM('',(#355),#194);
#359=STYLED_ITEM('',(#355),#214);
#360=STYLED_ITEM('',(#355),#234);
#361=STYLED_ITEM('',(#355),#254);
#362=STYLED_ITEM('',(#355),#274);
#363=STYLED_ITEM('',(#355),#294);
#364=STYLED_ITEM('',(#355),#314);
#365=STYLED_ITEM('',(#355),#334);
#366=STYLED_ITEM('',(#355),#346);
#367=MECHANICAL_DESIGN_GEOMETRIC_PRESENTATION_REPRESENTATION('',(#356,#357,#358,#359,#360,#361,#362,#363,#364,#365,#366,#375,#615),#106);
#368=DRAUGHTING_PRE_DEFINED_COLOUR('white');
#369=FILL_AREA_STYLE_COLOUR('Steel Galvanized',#368);
#370=FILL_AREA_STYLE('Steel Galvanized',(#369));
#371=SURFACE_STYLE_FILL_AREA(#370);
#372=SURFACE_SIDE_STYLE('Steel Galvanized',(#371));
#373=SURFACE_STYLE_USAGE(.BOTH.,#372);
#374=PRESENTATION_STYLE_ASSIGNMENT((#373));
#375=STYLED_ITEM('',(#374),#348);
#376=ADVANCED_BREP_SHAPE_REPRESENTATION('ABSR',(#348),#75);
#377=SHAPE_REPRESENTATION_RELATIONSHIP('SRR','None',#376,#80);
#378=AXIS2_PLACEMENT_3D('',#379,#380,#381);
#379=CARTESIAN_POINT('',(0.0,0.0,0.0));
#380=DIRECTION('',(0.0,0.0,1.0));
#381=DIRECTION('',(1.0,0.0,0.0));
#382=NEXT_ASSEMBLY_USAGE_OCCURRENCE('FD10003_1:1','FD10003_1:1','FD10003_1:1',#12,#51,'FD10003_1:1');
#383=PRODUCT_DEFINITION_SHAPE('FD10003_1:1','FD10003_1:1',#382);
#384=ITEM_DEFINED_TRANSFORMATION('FD10003_1:1','FD10003_1:1',#76,#378);
#388=(REPRESENTATION_RELATIONSHIP('FD10003_1:1','FD10003_1:1',#80,#41)REPRESENTATION_RELATIONSHIP_WITH_TRANSFORMATION(#384)SHAPE_REPRESENTATION_RELATIONSHIP());
#389=CONTEXT_DEPENDENT_SHAPE_REPRESENTATION(#388,#383);
#390=APPLICATION_CONTEXT('automotive design');
#391=APPLICATION_PROTOCOL_DEFINITION('Draft International Standard','automotive_design',1998,#390);
#392=PRODUCT_CONTEXT('None',#390,'mechanical');
#393=PRODUCT('HSN-63','HSN-63','None',(#392));
#394=PRODUCT_RELATED_PRODUCT_CATEGORY('part','description',(#393));
#395=PRODUCT_DEFINITION_FORMATION('None','None',#393);
#396=PRODUCT_DEFINITION_CONTEXT('part definition',#390,'design');
#397=PRODUCT_DEFINITION('None','None',#395,#396);
#403=(NAMED_UNIT(*)PLANE_ANGLE_UNIT()SI_UNIT($,.RADIAN.));
#404=DIMENSIONAL_EXPONENTS(0.0,0.0,0.0,0.0,0.0,0.0,0.0);
#405=PLANE_ANGLE_MEASURE_WITH_UNIT(PLANE_ANGLE_MEASURE(0.0174532925),#403);
#409=(CONVERSION_BASED_UNIT('DEGREE',#405)NAMED_UNIT(#404)PLANE_ANGLE_UNIT());
#413=(NAMED_UNIT(*)SI_UNIT($,.STERADIAN.)SOLID_ANGLE_UNIT());
#417=(LENGTH_UNIT()NAMED_UNIT(*)SI_UNIT(.MILLI.,.METRE.));
#419=UNCERTAINTY_MEASURE_WITH_UNIT(LENGTH_MEASURE(0.01),#417,'DISTANCE_ACCURACY_VALUE','');
#421=(GEOMETRIC_REPRESENTATION_CONTEXT(3)GLOBAL_UNCERTAINTY_ASSIGNED_CONTEXT((#419))GLOBAL_UNIT_ASSIGNED_CONTEXT((#409,#413,#417))REPRESENTATION_CONTEXT('None','None'));
#422=AXIS2_PLACEMENT_3D('',#423,#424,#425);
#423=CARTESIAN_POINT('',(0.0,0.0,0.0));
#424=DIRECTION('',(0.0,0.0,1.0));
#425=DIRECTION('',(1.0,0.0,0.0));
#426=SHAPE_REPRESENTATION('',(#422),#421);
#427=PRODUCT_DEFINITION_SHAPE('','',#397);
#428=SHAPE_DEFINITION_REPRESENTATION(#427,#426);
#434=(NAMED_UNIT(*)PLANE_ANGLE_UNIT()SI_UNIT($,.RADIAN.));
#435=DIMENSIONAL_EXPONENTS(0.0,0.0,0.0,0.0,0.0,0.0,0.0);
#436=PLANE_ANGLE_MEASURE_WITH_UNIT(PLANE_ANGLE_MEASURE(0.0174532925),#434);
#440=(CONVERSION_BASED_UNIT('DEGREE',#436)NAMED_UNIT(#435)PLANE_ANGLE_UNIT());
#444=(NAMED_UNIT(*)SI_UNIT($,.STERADIAN.)SOLID_ANGLE_UNIT());
#448=(LENGTH_UNIT()NAMED_UNIT(*)SI_UNIT(.MILLI.,.METRE.));
#450=UNCERTAINTY_MEASURE_WITH_UNIT(LENGTH_MEASURE(0.000001),#448,'DISTANCE_ACCURACY_VALUE','');
#452=(GEOMETRIC_REPRESENTATION_CONTEXT(3)GLOBAL_UNCERTAINTY_ASSIGNED_CONTEXT((#450))GLOBAL_UNIT_ASSIGNED_CONTEXT((#440,#444,#448))REPRESENTATION_CONTEXT('','3D'));
#453=CARTESIAN_POINT('',(-5.633375E-015,22.999999999999989,0.0));
#454=DIRECTION('',(2.449294E-016,-1.0,0.0));
#455=DIRECTION('',(0.0,0.0,-1.0));
#456=AXIS2_PLACEMENT_3D('',#453,#454,#455);
#457=TOROIDAL_SURFACE('',#456,32.525000000000006,2.0);
#458=CARTESIAN_POINT('',(30.525000000000002,23.0,0.0));
#459=VERTEX_POINT('',#458);
#460=CARTESIAN_POINT('',(-5.633375E-015,22.999999999999989,0.0));
#461=DIRECTION('',(0.0,-1.0,0.0));
#462=DIRECTION('',(-1.0,0.0,0.0));
#463=AXIS2_PLACEMENT_3D('',#460,#461,#462);
#464=CIRCLE('',#463,30.525000000000006);
#465=EDGE_CURVE('',#459,#459,#464,.T.);
#466=ORIENTED_EDGE('',*,*,#465,.T.);
#467=EDGE_LOOP('',(#466));
#468=FACE_OUTER_BOUND('',#467,.T.);
#469=CARTESIAN_POINT('',(32.525000000000006,25.0,-7.966327E-015));
#470=VERTEX_POINT('',#469);
#471=CARTESIAN_POINT('',(-6.123234E-015,24.999999999999993,0.0));
#472=DIRECTION('',(0.0,1.0,0.0));
#473=DIRECTION('',(-1.0,0.0,0.0));
#474=AXIS2_PLACEMENT_3D('',#471,#472,#473);
#475=CIRCLE('',#474,32.525000000000006);
#476=EDGE_CURVE('',#470,#470,#475,.T.);
#477=ORIENTED_EDGE('',*,*,#476,.T.);
#478=EDGE_LOOP('',(#477));
#479=FACE_BOUND('',#478,.T.);
#480=ADVANCED_FACE('',(#468,#479),#457,.T.);
#481=CARTESIAN_POINT('',(-3.061617E-015,12.499999999999993,0.0));
#482=DIRECTION('',(2.449294E-016,-1.0,0.0));
#483=DIRECTION('',(1.0,0.0,0.0));
#484=AXIS2_PLACEMENT_3D('',#481,#482,#483);
#485=CYLINDRICAL_SURFACE('',#484,30.525000000000006);
#486=CARTESIAN_POINT('',(30.525000000000002,-4.718500E-018,0.0));
#487=VERTEX_POINT('',#486);
#488=CARTESIAN_POINT('',(1.832522E-030,-7.480995E-015,0.0));
#489=DIRECTION('',(0.0,-1.0,0.0));
#490=DIRECTION('',(1.0,0.0,0.0));
#491=AXIS2_PLACEMENT_3D('',#488,#489,#490);
#492=CIRCLE('',#491,30.525000000000002);
#493=EDGE_CURVE('',#487,#487,#492,.T.);
#494=ORIENTED_EDGE('',*,*,#493,.T.);
#495=EDGE_LOOP('',(#494));
#496=FACE_OUTER_BOUND('',#495,.T.);
#497=ORIENTED_EDGE('',*,*,#465,.F.);
#498=EDGE_LOOP('',(#497));
#499=FACE_BOUND('',#498,.T.);
#500=ADVANCED_FACE('',(#496,#499),#485,.F.);
#501=CARTESIAN_POINT('',(36.275000000000006,25.0,0.0));
#502=DIRECTION('',(0.0,1.0,0.0));
#503=DIRECTION('',(0.0,0.0,1.0));
#504=AXIS2_PLACEMENT_3D('',#501,#502,#503);
#505=PLANE('',#504);
#506=CARTESIAN_POINT('',(42.025000000000006,25.0,0.0));
#507=VERTEX_POINT('',#506);
#508=CARTESIAN_POINT('',(-6.123234E-015,24.999999999999993,0.0));
#509=DIRECTION('',(0.0,-1.0,0.0));
#510=DIRECTION('',(1.0,0.0,0.0));
#511=AXIS2_PLACEMENT_3D('',#508,#509,#510);
#512=CIRCLE('',#511,42.025000000000013);
#513=EDGE_CURVE('',#507,#507,#512,.T.);
#514=ORIENTED_EDGE('',*,*,#513,.F.);
#515=EDGE_LOOP('',(#514));
#516=FACE_OUTER_BOUND('',#515,.T.);
#517=ORIENTED_EDGE('',*,*,#476,.F.);
#518=EDGE_LOOP('',(#517));
#519=FACE_BOUND('',#518,.T.);
#520=ADVANCED_FACE('',(#516,#519),#505,.T.);
#521=CARTESIAN_POINT('',(-5.510911E-015,22.499999999999993,0.0));
#522=DIRECTION('',(2.449294E-016,-1.0,0.0));
#523=DIRECTION('',(0.0,0.0,-1.0));
#524=AXIS2_PLACEMENT_3D('',#521,#522,#523);
#525=TOROIDAL_SURFACE('',#524,33.025000000000006,2.0);
#526=CARTESIAN_POINT('',(33.025000000000006,24.5,0.0));
#527=VERTEX_POINT('',#526);
#528=CARTESIAN_POINT('',(-6.000769E-015,24.499999999999993,0.0));
#529=DIRECTION('',(0.0,-1.0,0.0));
#530=DIRECTION('',(-1.0,0.0,0.0));
#531=AXIS2_PLACEMENT_3D('',#528,#529,#530);
#532=CIRCLE('',#531,33.025000000000006);
#533=EDGE_CURVE('',#527,#527,#532,.T.);
#534=ORIENTED_EDGE('',*,*,#533,.T.);
#535=EDGE_LOOP('',(#534));
#536=FACE_OUTER_BOUND('',#535,.T.);
#537=CARTESIAN_POINT('',(31.024999999999999,22.5,-7.598933E-015));
#538=VERTEX_POINT('',#537);
#539=CARTESIAN_POINT('',(-5.510911E-015,22.499999999999993,0.0));
#540=DIRECTION('',(0.0,1.0,0.0));
#541=DIRECTION('',(-1.0,0.0,0.0));
#542=AXIS2_PLACEMENT_3D('',#539,#540,#541);
#543=CIRCLE('',#542,31.025000000000006);
#544=EDGE_CURVE('',#538,#538,#543,.T.);
#545=ORIENTED_EDGE('',*,*,#544,.T.);
#546=EDGE_LOOP('',(#545));
#547=FACE_BOUND('',#546,.T.);
#548=ADVANCED_FACE('',(#536,#547),#525,.F.);
#549=CARTESIAN_POINT('',(36.525000000000006,24.5,0.0));
#550=DIRECTION('',(0.0,-1.0,0.0));
#551=DIRECTION('',(0.0,0.0,-1.0));
#552=AXIS2_PLACEMENT_3D('',#549,#550,#551);
#553=PLANE('',#552);
#554=CARTESIAN_POINT('',(42.025000000000006,24.5,0.0));
#555=VERTEX_POINT('',#554);
#556=CARTESIAN_POINT('',(-6.000769E-015,24.499999999999993,0.0));
#557=DIRECTION('',(0.0,-1.0,0.0));
#558=DIRECTION('',(1.0,0.0,0.0));
#559=AXIS2_PLACEMENT_3D('',#556,#557,#558);
#560=CIRCLE('',#559,42.025000000000013);
#561=EDGE_CURVE('',#555,#555,#560,.T.);
#562=ORIENTED_EDGE('',*,*,#561,.T.);
#563=EDGE_LOOP('',(#562));
#564=FACE_OUTER_BOUND('',#563,.T.);
#565=ORIENTED_EDGE('',*,*,#533,.F.);
#566=EDGE_LOOP('',(#565));
#567=FACE_BOUND('',#566,.T.);
#568=ADVANCED_FACE('',(#564,#567),#553,.T.);
#569=CARTESIAN_POINT('',(-3.000385E-015,12.249999999999993,0.0));
#570=DIRECTION('',(2.449294E-016,-1.0,0.0));
#571=DIRECTION('',(1.0,0.0,0.0));
#572=AXIS2_PLACEMENT_3D('',#569,#570,#571);
#573=CYLINDRICAL_SURFACE('',#572,31.025000000000006);
#574=CARTESIAN_POINT('',(31.024999999999999,0.0,0.0));
#575=VERTEX_POINT('',#574);
#576=CARTESIAN_POINT('',(1.860448E-030,-7.598089E-015,0.0));
#577=DIRECTION('',(0.0,-1.0,0.0));
#578=DIRECTION('',(1.0,0.0,0.0));
#579=AXIS2_PLACEMENT_3D('',#576,#577,#578);
#580=CIRCLE('',#579,31.024999999999999);
#581=EDGE_CURVE('',#575,#575,#580,.T.);
#582=ORIENTED_EDGE('',*,*,#581,.F.);
#583=EDGE_LOOP('',(#582));
#584=FACE_OUTER_BOUND('',#583,.T.);
#585=ORIENTED_EDGE('',*,*,#544,.F.);
#586=EDGE_LOOP('',(#585));
#587=FACE_BOUND('',#586,.T.);
#588=ADVANCED_FACE('',(#584,#587),#573,.T.);
#589=CARTESIAN_POINT('',(30.775000000000002,-2.359250E-018,0.0));
#590=DIRECTION('',(0.0,-1.0,0.0));
#591=DIRECTION('',(0.0,0.0,-1.0));
#592=AXIS2_PLACEMENT_3D('',#589,#590,#591);
#593=PLANE('',#592);
#594=ORIENTED_EDGE('',*,*,#581,.T.);
#595=EDGE_LOOP('',(#594));
#596=FACE_OUTER_BOUND('',#595,.T.);
#597=ORIENTED_EDGE('',*,*,#493,.F.);
#598=EDGE_LOOP('',(#597));
#599=FACE_BOUND('',#598,.T.);
#600=ADVANCED_FACE('',(#596,#599),#593,.T.);
#601=CARTESIAN_POINT('',(-6.062002E-015,24.749999999999993,0.0));
#602=DIRECTION('',(2.449294E-016,-1.0,0.0));
#603=DIRECTION('',(1.0,0.0,0.0));
#604=AXIS2_PLACEMENT_3D('',#601,#602,#603);
#605=CYLINDRICAL_SURFACE('',#604,42.025000000000013);
#606=ORIENTED_EDGE('',*,*,#561,.F.);
#607=EDGE_LOOP('',(#606));
#608=FACE_OUTER_BOUND('',#607,.T.);
#609=ORIENTED_EDGE('',*,*,#513,.T.);
#610=EDGE_LOOP('',(#609));
#611=FACE_BOUND('',#610,.T.);
#612=ADVANCED_FACE('',(#608,#611),#605,.T.);
#613=CLOSED_SHELL('',(#480,#500,#520,#548,#568,#588,#600,#612));
#614=MANIFOLD_SOLID_BREP('Solid2',#613);
#615=STYLED_ITEM('',(#374),#614);
#616=ADVANCED_BREP_SHAPE_REPRESENTATION('ABSR',(#614),#421);
#617=SHAPE_REPRESENTATION_RELATIONSHIP('SRR','None',#616,#426);
#618=AXIS2_PLACEMENT_3D('',#619,#620,#621);
#619=CARTESIAN_POINT('',(-1.100000000000048,61.999999999999851,-1.967375E-013));
#620=DIRECTION('',(-0.999999999999996,7.395571E-032,4.052178E-032));
#621=DIRECTION('',(-1.665335E-016,-3.458257E-015,-0.999999999999998));
#622=NEXT_ASSEMBLY_USAGE_OCCURRENCE('HSN-63:1','HSN-63:1','HSN-63:1',#12,#397,'HSN-63:1');
#623=PRODUCT_DEFINITION_SHAPE('HSN-63:1','HSN-63:1',#622);
#624=ITEM_DEFINED_TRANSFORMATION('HSN-63:1','HSN-63:1',#422,#618);
#628=(REPRESENTATION_RELATIONSHIP('HSN-63:1','HSN-63:1',#426,#41)REPRESENTATION_RELATIONSHIP_WITH_TRANSFORMATION(#624)SHAPE_REPRESENTATION_RELATIONSHIP());
#629=CONTEXT_DEPENDENT_SHAPE_REPRESENTATION(#628,#623);
ENDSEC;
END-ISO-10303-21;
